ISO-10303-21;
HEADER;
FILE_DESCRIPTION (( 'STEP AP214' ),
    '1' );
FILE_NAME ('20154.STEP',
    '2024-02-08T14:08:17',
    ( '' ),
    ( '' ),
    'SwSTEP 2.0',
    'SolidWorks 2018',
    '' );
FILE_SCHEMA (( 'AUTOMOTIVE_DESIGN' ));
ENDSEC;

DATA;
#1 = ORIENTED_EDGE ( 'NONE', *, *, #179, .F. ) ;
#2 = LINE ( 'NONE', #21, #78 ) ;
#3 = DIRECTION ( 'NONE',  ( 1.541976423090495387E-16, -0.000000000000000000, 1.000000000000000000 ) ) ;
#4 = EDGE_CURVE ( 'NONE', #181, #330, #79, .T. ) ;
#5 =( NAMED_UNIT ( * ) PLANE_ANGLE_UNIT ( ) SI_UNIT ( $, .RADIAN. ) );
#6 = ORIENTED_EDGE ( 'NONE', *, *, #140, .F. ) ;
#7 = DIRECTION ( 'NONE',  ( -0.000000000000000000, -1.000000000000000000, -0.000000000000000000 ) ) ;
#8 = APPLICATION_CONTEXT ( 'automotive_design' ) ;
#9 = ORIENTED_EDGE ( 'NONE', *, *, #179, .T. ) ;
#10 =( GEOMETRIC_REPRESENTATION_CONTEXT ( 3 ) GLOBAL_UNCERTAINTY_ASSIGNED_CONTEXT ( ( #59 ) ) GLOBAL_UNIT_ASSIGNED_CONTEXT ( ( #108, #189, #135 ) ) REPRESENTATION_CONTEXT ( 'NONE', 'WORKASPACE' ) );
#11 = CARTESIAN_POINT ( 'NONE',  ( 0.000000000000000000, 1079.999999999999773, 0.000000000000000000 ) ) ;
#12 = ADVANCED_FACE ( 'NONE', ( #178 ), #68, .F. ) ;
#13 = VECTOR ( 'NONE', #120, 1000.000000000000000 ) ;
#14 = CARTESIAN_POINT ( 'NONE',  ( 19.99999999999999645, 1079.999999999999773, -20.00000000000000711 ) ) ;
#15 = DIRECTION ( 'NONE',  ( 0.000000000000000000, -0.000000000000000000, -1.000000000000000000 ) ) ;
#16 = ORIENTED_EDGE ( 'NONE', *, *, #294, .F. ) ;
#17 = CARTESIAN_POINT ( 'NONE',  ( 45.00000000000000000, 0.000000000000000000, -45.00000000000000000 ) ) ;
#18 = CARTESIAN_POINT ( 'NONE',  ( 45.00000000000001421, 5.000000000000000000, 45.00000000000000000 ) ) ;
#19 = DIRECTION ( 'NONE',  ( 0.000000000000000000, -1.000000000000000000, 0.000000000000000000 ) ) ;
#20 = LINE ( 'NONE', #211, #182 ) ;
#21 = CARTESIAN_POINT ( 'NONE',  ( 19.99999999999999645, 1079.999999999999773, -20.00000000000000711 ) ) ;
#22 = EDGE_LOOP ( 'NONE', ( #236, #103, #74, #37 ) ) ;
#23 = ORIENTED_EDGE ( 'NONE', *, *, #219, .T. ) ;
#24 = FACE_OUTER_BOUND ( 'NONE', #53, .T. ) ;
#25 = EDGE_LOOP ( 'NONE', ( #77, #6, #194, #1 ) ) ;
#26 = ORIENTED_EDGE ( 'NONE', *, *, #234, .T. ) ;
#27 = PRODUCT ( '20154', '20154', '', ( #306 ) ) ;
#28 = EDGE_LOOP ( 'NONE', ( #128, #124, #105, #266 ) ) ;
#29 = LINE ( 'NONE', #224, #310 ) ;
#30 = PRESENTATION_STYLE_ASSIGNMENT (( #60 ) ) ;
#31 = DIRECTION ( 'NONE',  ( 1.734723475976807094E-16, 0.000000000000000000, 1.000000000000000000 ) ) ;
#32 = CARTESIAN_POINT ( 'NONE',  ( -45.00000000000000000, 5.000000000000000000, -44.99999999999998579 ) ) ;
#33 = ADVANCED_FACE ( 'NONE', ( #280 ), #217, .F. ) ;
#34 = DIRECTION ( 'NONE',  ( 1.000000000000000000, -0.000000000000000000, -1.541976423090495387E-16 ) ) ;
#35 = ORIENTED_EDGE ( 'NONE', *, *, #257, .F. ) ;
#36 = VECTOR ( 'NONE', #199, 1000.000000000000000 ) ;
#37 = ORIENTED_EDGE ( 'NONE', *, *, #205, .T. ) ;
#38 = ORIENTED_EDGE ( 'NONE', *, *, #46, .T. ) ;
#39 = APPLICATION_PROTOCOL_DEFINITION ( 'draft international standard', 'automotive_design', 1998, #8 ) ;
#40 = VECTOR ( 'NONE', #259, 1000.000000000000000 ) ;
#41 = DIRECTION ( 'NONE',  ( 0.000000000000000000, 0.000000000000000000, 1.000000000000000000 ) ) ;
#42 = ADVANCED_FACE ( 'NONE', ( #267 ), #115, .F. ) ;
#43 = CARTESIAN_POINT ( 'NONE',  ( -44.99999999999997868, 5.000000000000000000, 45.00000000000001421 ) ) ;
#44 = ORIENTED_EDGE ( 'NONE', *, *, #249, .T. ) ;
#45 = VERTEX_POINT ( 'NONE', #43 ) ;
#46 = EDGE_CURVE ( 'NONE', #253, #45, #126, .T. ) ;
#47 = DIRECTION ( 'NONE',  ( -1.000000000000000000, 0.000000000000000000, 1.734723475976807094E-16 ) ) ;
#48 = CARTESIAN_POINT ( 'NONE',  ( -45.00000000000000000, 5.000000000000000000, -44.99999999999998579 ) ) ;
#49 = DIRECTION ( 'NONE',  ( -1.734723475976807094E-16, 0.000000000000000000, -1.000000000000000000 ) ) ;
#50 = DIRECTION ( 'NONE',  ( 1.734723475976807094E-16, 0.000000000000000000, 1.000000000000000000 ) ) ;
#51 = DIRECTION ( 'NONE',  ( -1.734723475976807341E-16, 0.000000000000000000, -1.000000000000000000 ) ) ;
#52 = AXIS2_PLACEMENT_3D ( 'NONE', #14, #317, #142 ) ;
#53 = EDGE_LOOP ( 'NONE', ( #38, #312, #63, #44 ) ) ;
#54 = LINE ( 'NONE', #193, #244 ) ;
#55 = AXIS2_PLACEMENT_3D ( 'NONE', #93, #51, #174 ) ;
#56 = LINE ( 'NONE', #17, #111 ) ;
#57 = DIRECTION ( 'NONE',  ( -1.000000000000000000, 0.000000000000000000, 1.734723475976807094E-16 ) ) ;
#58 = DIRECTION ( 'NONE',  ( 0.000000000000000000, -1.000000000000000000, 0.000000000000000000 ) ) ;
#59 = UNCERTAINTY_MEASURE_WITH_UNIT (LENGTH_MEASURE( 1.000000000000000082E-05 ), #108, 'distance_accuracy_value', 'NONE');
#60 = SURFACE_STYLE_USAGE ( .BOTH. , #274 ) ;
#61 = SURFACE_STYLE_FILL_AREA ( #316 ) ;
#62 = DIRECTION ( 'NONE',  ( -1.541976423090495387E-16, 0.000000000000000000, -1.000000000000000000 ) ) ;
#63 = ORIENTED_EDGE ( 'NONE', *, *, #324, .T. ) ;
#64 = PLANE ( 'NONE',  #52 ) ;
#65 = DIRECTION ( 'NONE',  ( 2.312964634635742957E-16, 0.000000000000000000, 1.000000000000000000 ) ) ;
#66 = DIRECTION ( 'NONE',  ( -1.000000000000000000, 0.000000000000000000, 8.673617379884035472E-17 ) ) ;
#67 = CARTESIAN_POINT ( 'NONE',  ( -19.99999999999999645, 1079.999999999999773, 20.00000000000000000 ) ) ;
#68 = PLANE ( 'NONE',  #230 ) ;
#69 = DIRECTION ( 'NONE',  ( -1.541976423090495387E-16, -0.000000000000000000, -1.000000000000000000 ) ) ;
#70 = AXIS2_PLACEMENT_3D ( 'NONE', #11, #336, #15 ) ;
#71 = DIRECTION ( 'NONE',  ( 1.000000000000000000, -0.000000000000000000, -1.734723475976807341E-16 ) ) ;
#72 = VECTOR ( 'NONE', #34, 1000.000000000000000 ) ;
#73 = ORIENTED_EDGE ( 'NONE', *, *, #187, .F. ) ;
#74 = ORIENTED_EDGE ( 'NONE', *, *, #257, .T. ) ;
#75 = PRODUCT_DEFINITION_CONTEXT ( 'detailed design', #8, 'design' ) ;
#76 = VECTOR ( 'NONE', #71, 1000.000000000000000 ) ;
#77 = ORIENTED_EDGE ( 'NONE', *, *, #191, .F. ) ;
#78 = VECTOR ( 'NONE', #81, 1000.000000000000000 ) ;
#79 = LINE ( 'NONE', #138, #344 ) ;
#80 = CARTESIAN_POINT ( 'NONE',  ( 19.99999999999999645, 5.000000000000000000, -20.00000000000000711 ) ) ;
#81 = DIRECTION ( 'NONE',  ( -8.673617379884035472E-17, -0.000000000000000000, -1.000000000000000000 ) ) ;
#82 = FACE_OUTER_BOUND ( 'NONE', #334, .T. ) ;
#83 = ORIENTED_EDGE ( 'NONE', *, *, #4, .F. ) ;
#84 = VECTOR ( 'NONE', #31, 1000.000000000000000 ) ;
#85 = CARTESIAN_POINT ( 'NONE',  ( 45.00000000000001421, 5.000000000000000000, 45.00000000000000000 ) ) ;
#86 = VECTOR ( 'NONE', #47, 1000.000000000000000 ) ;
#87 = DIRECTION ( 'NONE',  ( 2.312964634635742957E-16, 0.000000000000000000, 1.000000000000000000 ) ) ;
#88 = CARTESIAN_POINT ( 'NONE',  ( 19.99999999999999645, 5.000000000000000000, -20.00000000000000711 ) ) ;
#89 = EDGE_LOOP ( 'NONE', ( #216, #152, #35, #160 ) ) ;
#90 = CARTESIAN_POINT ( 'NONE',  ( 19.99999999999999645, 1079.999999999999773, -20.00000000000000711 ) ) ;
#91 = EDGE_CURVE ( 'NONE', #186, #141, #292, .T. ) ;
#92 = DIRECTION ( 'NONE',  ( -8.673617379884035472E-17, -0.000000000000000000, -1.000000000000000000 ) ) ;
#93 = CARTESIAN_POINT ( 'NONE',  ( 20.00000000000000000, 1079.999999999999773, 19.99999999999999289 ) ) ;
#94 = CARTESIAN_POINT ( 'NONE',  ( 45.00000000000000000, 5.000000000000000000, -45.00000000000000000 ) ) ;
#95 = ADVANCED_BREP_SHAPE_REPRESENTATION ( '20154', ( #180, #112 ), #331 ) ;
#96 = ORIENTED_EDGE ( 'NONE', *, *, #207, .F. ) ;
#97 = FACE_OUTER_BOUND ( 'NONE', #190, .T. ) ;
#98 = AXIS2_PLACEMENT_3D ( 'NONE', #273, #3, #104 ) ;
#99 = ORIENTED_EDGE ( 'NONE', *, *, #287, .T. ) ;
#100 = LINE ( 'NONE', #88, #86 ) ;
#101 = VECTOR ( 'NONE', #212, 1000.000000000000000 ) ;
#102 = ORIENTED_EDGE ( 'NONE', *, *, #324, .F. ) ;
#103 = ORIENTED_EDGE ( 'NONE', *, *, #187, .T. ) ;
#104 = DIRECTION ( 'NONE',  ( 1.000000000000000000, 0.000000000000000000, -1.541976423090495387E-16 ) ) ;
#105 = ORIENTED_EDGE ( 'NONE', *, *, #205, .F. ) ;
#106 = EDGE_CURVE ( 'NONE', #45, #233, #143, .T. ) ;
#107 = VECTOR ( 'NONE', #65, 1000.000000000000000 ) ;
#108 =( LENGTH_UNIT ( ) NAMED_UNIT ( * ) SI_UNIT ( .MILLI., .METRE. ) );
#109 = CARTESIAN_POINT ( 'NONE',  ( 0.000000000000000000, 5.000000000000000000, 0.000000000000000000 ) ) ;
#110 = DIRECTION ( 'NONE',  ( 1.000000000000000000, 0.000000000000000000, 0.000000000000000000 ) ) ;
#111 = VECTOR ( 'NONE', #171, 1000.000000000000000 ) ;
#112 = AXIS2_PLACEMENT_3D ( 'NONE', #297, #41, #110 ) ;
#113 = PLANE ( 'NONE',  #263 ) ;
#114 = ORIENTED_EDGE ( 'NONE', *, *, #91, .T. ) ;
#115 = PLANE ( 'NONE',  #226 ) ;
#116 = DIRECTION ( 'NONE',  ( 1.000000000000000000, -0.000000000000000000, -1.541976423090495387E-16 ) ) ;
#117 = DIRECTION ( 'NONE',  ( 8.673617379884035472E-17, 0.000000000000000000, 1.000000000000000000 ) ) ;
#118 = CARTESIAN_POINT ( 'NONE',  ( -20.00000000000000355, 5.000000000000000000, -20.00000000000000000 ) ) ;
#119 = PLANE ( 'NONE',  #235 ) ;
#120 = DIRECTION ( 'NONE',  ( -1.000000000000000000, 0.000000000000000000, 1.541976423090495387E-16 ) ) ;
#121 = EDGE_CURVE ( 'NONE', #204, #296, #54, .T. ) ;
#122 = LINE ( 'NONE', #18, #153 ) ;
#123 = ADVANCED_FACE ( 'NONE', ( #198 ), #64, .F. ) ;
#124 = ORIENTED_EDGE ( 'NONE', *, *, #129, .F. ) ;
#125 = ORIENTED_EDGE ( 'NONE', *, *, #191, .T. ) ;
#126 = LINE ( 'NONE', #252, #264 ) ;
#127 =( LENGTH_UNIT ( ) NAMED_UNIT ( * ) SI_UNIT ( .MILLI., .METRE. ) );
#128 = ORIENTED_EDGE ( 'NONE', *, *, #140, .T. ) ;
#129 = EDGE_CURVE ( 'NONE', #289, #149, #150, .T. ) ;
#130 = FACE_OUTER_BOUND ( 'NONE', #242, .T. ) ;
#131 = FILL_AREA_STYLE_COLOUR ( '', #215 ) ;
#132 = CARTESIAN_POINT ( 'NONE',  ( -44.99999999999997868, 5.000000000000000000, 45.00000000000001421 ) ) ;
#133 = UNCERTAINTY_MEASURE_WITH_UNIT (LENGTH_MEASURE( 1.000000000000000082E-05 ), #127, 'distance_accuracy_value', 'NONE');
#134 = DIRECTION ( 'NONE',  ( -0.000000000000000000, -1.000000000000000000, -0.000000000000000000 ) ) ;
#135 =( NAMED_UNIT ( * ) SI_UNIT ( $, .STERADIAN. ) SOLID_ANGLE_UNIT ( ) );
#136 = CARTESIAN_POINT ( 'NONE',  ( -20.00000000000000355, 1079.999999999999773, -20.00000000000000000 ) ) ;
#137 = LINE ( 'NONE', #255, #147 ) ;
#138 = CARTESIAN_POINT ( 'NONE',  ( 20.00000000000000000, 1079.999999999999773, 19.99999999999999289 ) ) ;
#139 = DIRECTION ( 'NONE',  ( -2.312964634635742957E-16, 0.000000000000000000, -1.000000000000000000 ) ) ;
#140 = EDGE_CURVE ( 'NONE', #276, #149, #100, .T. ) ;
#141 = VERTEX_POINT ( 'NONE', #313 ) ;
#142 = DIRECTION ( 'NONE',  ( 1.000000000000000000, 0.000000000000000000, -1.734723475976807094E-16 ) ) ;
#143 = LINE ( 'NONE', #85, #342 ) ;
#144 = LINE ( 'NONE', #329, #72 ) ;
#145 = FILL_AREA_STYLE_COLOUR ( '', #286 ) ;
#146 = ORIENTED_EDGE ( 'NONE', *, *, #129, .T. ) ;
#147 = VECTOR ( 'NONE', #50, 1000.000000000000000 ) ;
#148 = EDGE_CURVE ( 'NONE', #330, #276, #158, .T. ) ;
#149 = VERTEX_POINT ( 'NONE', #118 ) ;
#150 = LINE ( 'NONE', #136, #36 ) ;
#151 = SURFACE_STYLE_USAGE ( .BOTH. , #339 ) ;
#152 = ORIENTED_EDGE ( 'NONE', *, *, #246, .F. ) ;
#153 = VECTOR ( 'NONE', #247, 1000.000000000000000 ) ;
#154 = CARTESIAN_POINT ( 'NONE',  ( 20.00000000000000000, 5.000000000000000000, 19.99999999999999289 ) ) ;
#155 = VERTEX_POINT ( 'NONE', #67 ) ;
#156 =( LENGTH_UNIT ( ) NAMED_UNIT ( * ) SI_UNIT ( .MILLI., .METRE. ) );
#157 = CARTESIAN_POINT ( 'NONE',  ( 45.00000000000000000, 0.000000000000000000, -45.00000000000000000 ) ) ;
#158 = LINE ( 'NONE', #167, #303 ) ;
#159 = APPLICATION_PROTOCOL_DEFINITION ( 'draft international standard', 'automotive_design', 1998, #304 ) ;
#160 = ORIENTED_EDGE ( 'NONE', *, *, #4, .T. ) ;
#161 = VERTEX_POINT ( 'NONE', #284 ) ;
#162 = VECTOR ( 'NONE', #134, 1000.000000000000000 ) ;
#163 = ADVANCED_FACE ( 'NONE', ( #315 ), #113, .F. ) ;
#164 = DIRECTION ( 'NONE',  ( -1.000000000000000000, 0.000000000000000000, 1.541976423090495387E-16 ) ) ;
#165 = EDGE_LOOP ( 'NONE', ( #125, #177, #184, #146 ) ) ;
#166 = CARTESIAN_POINT ( 'NONE',  ( -45.00000000000000000, 0.000000000000000000, -44.99999999999998579 ) ) ;
#167 = CARTESIAN_POINT ( 'NONE',  ( 19.99999999999999645, 5.000000000000000000, -20.00000000000000711 ) ) ;
#168 = PRESENTATION_STYLE_ASSIGNMENT (( #151 ) ) ;
#169 = LINE ( 'NONE', #300, #101 ) ;
#170 = CARTESIAN_POINT ( 'NONE',  ( -20.00000000000000355, 1079.999999999999773, -20.00000000000000000 ) ) ;
#171 = DIRECTION ( 'NONE',  ( -1.000000000000000000, 0.000000000000000000, 1.541976423090495387E-16 ) ) ;
#172 = CARTESIAN_POINT ( 'NONE',  ( 19.99999999999999645, 1079.999999999999773, -20.00000000000000711 ) ) ;
#173 = EDGE_LOOP ( 'NONE', ( #26, #269, #102, #222 ) ) ;
#174 = DIRECTION ( 'NONE',  ( -1.000000000000000000, 0.000000000000000000, 1.734723475976807341E-16 ) ) ;
#175 = ADVANCED_FACE ( 'NONE', ( #82 ), #258, .F. ) ;
#176 = VECTOR ( 'NONE', #272, 1000.000000000000000 ) ;
#177 = ORIENTED_EDGE ( 'NONE', *, *, #287, .F. ) ;
#178 = FACE_OUTER_BOUND ( 'NONE', #173, .T. ) ;
#179 = EDGE_CURVE ( 'NONE', #161, #330, #214, .T. ) ;
#180 = MANIFOLD_SOLID_BREP ( 'Estrusione-Estrusione2', #262 ) ;
#181 = VERTEX_POINT ( 'NONE', #261 ) ;
#182 = VECTOR ( 'NONE', #298, 1000.000000000000000 ) ;
#183 =( NAMED_UNIT ( * ) SI_UNIT ( $, .STERADIAN. ) SOLID_ANGLE_UNIT ( ) );
#184 = ORIENTED_EDGE ( 'NONE', *, *, #209, .F. ) ;
#185 = CARTESIAN_POINT ( 'NONE',  ( -20.00000000000000355, 5.000000000000000000, -20.00000000000000000 ) ) ;
#186 = VERTEX_POINT ( 'NONE', #227 ) ;
#187 = EDGE_CURVE ( 'NONE', #155, #181, #20, .T. ) ;
#188 =( NAMED_UNIT ( * ) SI_UNIT ( $, .STERADIAN. ) SOLID_ANGLE_UNIT ( ) );
#189 =( NAMED_UNIT ( * ) PLANE_ANGLE_UNIT ( ) SI_UNIT ( $, .RADIAN. ) );
#190 = EDGE_LOOP ( 'NONE', ( #114, #320, #293, #323 ) ) ;
#191 = EDGE_CURVE ( 'NONE', #149, #161, #206, .T. ) ;
#192 = AXIS2_PLACEMENT_3D ( 'NONE', #109, #58, #328 ) ;
#193 = CARTESIAN_POINT ( 'NONE',  ( 45.00000000000000000, 5.000000000000000000, -45.00000000000000000 ) ) ;
#194 = ORIENTED_EDGE ( 'NONE', *, *, #148, .F. ) ;
#195 = EDGE_LOOP ( 'NONE', ( #23, #16, #340, #301 ) ) ;
#196 = DIRECTION ( 'NONE',  ( -1.000000000000000000, 0.000000000000000000, 1.541976423090495387E-16 ) ) ;
#197 = PLANE ( 'NONE',  #319 ) ;
#198 = FACE_OUTER_BOUND ( 'NONE', #28, .T. ) ;
#199 = DIRECTION ( 'NONE',  ( -0.000000000000000000, -1.000000000000000000, -0.000000000000000000 ) ) ;
#200 = DIRECTION ( 'NONE',  ( 1.000000000000000000, 0.000000000000000000, -1.734723475976807094E-16 ) ) ;
#201 = PRESENTATION_LAYER_ASSIGNMENT (  '', '', ( #265 ) ) ;
#202 = DIRECTION ( 'NONE',  ( 1.000000000000000000, 0.000000000000000000, -2.312964634635742957E-16 ) ) ;
#203 = CARTESIAN_POINT ( 'NONE',  ( 20.00000000000000000, 5.000000000000000000, 19.99999999999999289 ) ) ;
#204 = VERTEX_POINT ( 'NONE', #208 ) ;
#205 = EDGE_CURVE ( 'NONE', #228, #289, #279, .T. ) ;
#206 = LINE ( 'NONE', #185, #84 ) ;
#207 = EDGE_CURVE ( 'NONE', #233, #237, #122, .T. ) ;
#208 = CARTESIAN_POINT ( 'NONE',  ( 45.00000000000000000, 5.000000000000000000, -45.00000000000000000 ) ) ;
#209 = EDGE_CURVE ( 'NONE', #289, #155, #137, .T. ) ;
#210 = FACE_BOUND ( 'NONE', #25, .T. ) ;
#211 = CARTESIAN_POINT ( 'NONE',  ( 20.00000000000000000, 1079.999999999999773, 19.99999999999999289 ) ) ;
#212 = DIRECTION ( 'NONE',  ( -1.541976423090495387E-16, -0.000000000000000000, -1.000000000000000000 ) ) ;
#213 = CARTESIAN_POINT ( 'NONE',  ( -19.99999999999999645, 1079.999999999999773, 20.00000000000000000 ) ) ;
#214 = LINE ( 'NONE', #203, #76 ) ;
#215 = COLOUR_RGB ( '',0.8980392156862745390, 0.8980392156862745390, 0.8980392156862745390 ) ;
#216 = ORIENTED_EDGE ( 'NONE', *, *, #148, .T. ) ;
#217 = PLANE ( 'NONE',  #70 ) ;
#218 = LINE ( 'NONE', #94, #13 ) ;
#219 = EDGE_CURVE ( 'NONE', #296, #186, #56, .T. ) ;
#220 = CARTESIAN_POINT ( 'NONE',  ( 45.00000000000001421, 5.000000000000000000, 45.00000000000000000 ) ) ;
#221 = CARTESIAN_POINT ( 'NONE',  ( 19.99999999999999645, 1079.999999999999773, -20.00000000000000711 ) ) ;
#222 = ORIENTED_EDGE ( 'NONE', *, *, #207, .T. ) ;
#223 = ADVANCED_FACE ( 'NONE', ( #97 ), #119, .F. ) ;
#224 = CARTESIAN_POINT ( 'NONE',  ( 45.00000000000000000, 0.000000000000000000, -45.00000000000000000 ) ) ;
#225 = ADVANCED_FACE ( 'NONE', ( #130 ), #338, .T. ) ;
#226 = AXIS2_PLACEMENT_3D ( 'NONE', #220, #62, #196 ) ;
#227 = CARTESIAN_POINT ( 'NONE',  ( -45.00000000000000000, 0.000000000000000000, -44.99999999999998579 ) ) ;
#228 = VERTEX_POINT ( 'NONE', #90 ) ;
#229 = ORIENTED_EDGE ( 'NONE', *, *, #106, .F. ) ;
#230 = AXIS2_PLACEMENT_3D ( 'NONE', #250, #164, #281 ) ;
#231 = LINE ( 'NONE', #172, #40 ) ;
#232 = PRODUCT_RELATED_PRODUCT_CATEGORY ( 'part', '', ( #27 ) ) ;
#233 = VERTEX_POINT ( 'NONE', #256 ) ;
#234 = EDGE_CURVE ( 'NONE', #237, #296, #29, .T. ) ;
#235 = AXIS2_PLACEMENT_3D ( 'NONE', #48, #202, #139 ) ;
#236 = ORIENTED_EDGE ( 'NONE', *, *, #209, .T. ) ;
#237 = VERTEX_POINT ( 'NONE', #318 ) ;
#238 = FACE_OUTER_BOUND ( 'NONE', #89, .T. ) ;
#239 = CARTESIAN_POINT ( 'NONE',  ( -20.00000000000000355, 1079.999999999999773, -20.00000000000000000 ) ) ;
#240 = CARTESIAN_POINT ( 'NONE',  ( 19.99999999999999645, 1079.999999999999773, -20.00000000000000711 ) ) ;
#241 = ORIENTED_EDGE ( 'NONE', *, *, #309, .F. ) ;
#242 = EDGE_LOOP ( 'NONE', ( #271, #285, #290, #241 ) ) ;
#243 = FILL_AREA_STYLE ('',( #131 ) ) ;
#244 = VECTOR ( 'NONE', #278, 1000.000000000000000 ) ;
#245 = PLANE ( 'NONE',  #98 ) ;
#246 = EDGE_CURVE ( 'NONE', #228, #276, #231, .T. ) ;
#247 = DIRECTION ( 'NONE',  ( -0.000000000000000000, -1.000000000000000000, -0.000000000000000000 ) ) ;
#248 = LINE ( 'NONE', #213, #162 ) ;
#249 = EDGE_CURVE ( 'NONE', #204, #253, #218, .T. ) ;
#250 = CARTESIAN_POINT ( 'NONE',  ( 45.00000000000000000, 5.000000000000000000, -45.00000000000000000 ) ) ;
#251 = ADVANCED_FACE ( 'NONE', ( #238 ), #197, .F. ) ;
#252 = CARTESIAN_POINT ( 'NONE',  ( -45.00000000000000000, 5.000000000000000000, -44.99999999999998579 ) ) ;
#253 = VERTEX_POINT ( 'NONE', #282 ) ;
#254 = PRODUCT_DEFINITION_FORMATION_WITH_SPECIFIED_SOURCE ( 'ANY', '', #27, .NOT_KNOWN. ) ;
#255 = CARTESIAN_POINT ( 'NONE',  ( -20.00000000000000355, 1079.999999999999773, -20.00000000000000000 ) ) ;
#256 = CARTESIAN_POINT ( 'NONE',  ( 45.00000000000001421, 5.000000000000000000, 45.00000000000000000 ) ) ;
#257 = EDGE_CURVE ( 'NONE', #181, #228, #2, .T. ) ;
#258 = PLANE ( 'NONE',  #55 ) ;
#259 = DIRECTION ( 'NONE',  ( -0.000000000000000000, -1.000000000000000000, -0.000000000000000000 ) ) ;
#260 = UNCERTAINTY_MEASURE_WITH_UNIT (LENGTH_MEASURE( 1.000000000000000082E-05 ), #156, 'distance_accuracy_value', 'NONE');
#261 = CARTESIAN_POINT ( 'NONE',  ( 20.00000000000000000, 1079.999999999999773, 19.99999999999999289 ) ) ;
#262 = CLOSED_SHELL ( 'NONE', ( #277, #223, #42, #12, #288, #225, #163, #175, #251, #123, #33 ) ) ;
#263 = AXIS2_PLACEMENT_3D ( 'NONE', #170, #200, #49 ) ;
#264 = VECTOR ( 'NONE', #87, 1000.000000000000000 ) ;
#265 = STYLED_ITEM ( 'NONE', ( #168 ), #180 ) ;
#266 = ORIENTED_EDGE ( 'NONE', *, *, #246, .T. ) ;
#267 = FACE_OUTER_BOUND ( 'NONE', #335, .T. ) ;
#268 = PRODUCT_DEFINITION ( 'UNKNOWN', '', #254, #75 ) ;
#269 = ORIENTED_EDGE ( 'NONE', *, *, #121, .F. ) ;
#270 =( NAMED_UNIT ( * ) PLANE_ANGLE_UNIT ( ) SI_UNIT ( $, .RADIAN. ) );
#271 = ORIENTED_EDGE ( 'NONE', *, *, #91, .F. ) ;
#272 = DIRECTION ( 'NONE',  ( -0.000000000000000000, -1.000000000000000000, -0.000000000000000000 ) ) ;
#273 = CARTESIAN_POINT ( 'NONE',  ( 45.00000000000000000, 5.000000000000000000, -45.00000000000000000 ) ) ;
#274 = SURFACE_SIDE_STYLE ('',( #311 ) ) ;
#275 = PRODUCT_DEFINITION_SHAPE ( 'NONE', 'NONE',  #268 ) ;
#276 = VERTEX_POINT ( 'NONE', #80 ) ;
#277 = ADVANCED_FACE ( 'NONE', ( #24, #210 ), #302, .F. ) ;
#278 = DIRECTION ( 'NONE',  ( -0.000000000000000000, -1.000000000000000000, -0.000000000000000000 ) ) ;
#279 = LINE ( 'NONE', #240, #332 ) ;
#280 = FACE_OUTER_BOUND ( 'NONE', #22, .T. ) ;
#281 = DIRECTION ( 'NONE',  ( 1.541976423090495387E-16, 0.000000000000000000, 1.000000000000000000 ) ) ;
#282 = CARTESIAN_POINT ( 'NONE',  ( -45.00000000000000000, 5.000000000000000000, -44.99999999999998579 ) ) ;
#283 = MECHANICAL_DESIGN_GEOMETRIC_PRESENTATION_REPRESENTATION (  '', ( #265 ), #325 ) ;
#284 = CARTESIAN_POINT ( 'NONE',  ( -19.99999999999999645, 5.000000000000000000, 20.00000000000000000 ) ) ;
#285 = ORIENTED_EDGE ( 'NONE', *, *, #219, .F. ) ;
#286 = COLOUR_RGB ( '',0.8980392156862745390, 0.8980392156862745390, 0.8980392156862745390 ) ;
#287 = EDGE_CURVE ( 'NONE', #155, #161, #248, .T. ) ;
#288 = ADVANCED_FACE ( 'NONE', ( #291 ), #245, .F. ) ;
#289 = VERTEX_POINT ( 'NONE', #239 ) ;
#290 = ORIENTED_EDGE ( 'NONE', *, *, #234, .F. ) ;
#291 = FACE_OUTER_BOUND ( 'NONE', #195, .T. ) ;
#292 = LINE ( 'NONE', #166, #107 ) ;
#293 = ORIENTED_EDGE ( 'NONE', *, *, #46, .F. ) ;
#294 = EDGE_CURVE ( 'NONE', #253, #186, #326, .T. ) ;
#295 = AXIS2_PLACEMENT_3D ( 'NONE', #341, #19, #337 ) ;
#296 = VERTEX_POINT ( 'NONE', #157 ) ;
#297 = CARTESIAN_POINT ( 'NONE',  ( 0.000000000000000000, 0.000000000000000000, 0.000000000000000000 ) ) ;
#298 = DIRECTION ( 'NONE',  ( 1.000000000000000000, -0.000000000000000000, -1.734723475976807341E-16 ) ) ;
#299 = EDGE_CURVE ( 'NONE', #45, #141, #321, .T. ) ;
#300 = CARTESIAN_POINT ( 'NONE',  ( 45.00000000000000000, 5.000000000000000000, -45.00000000000000000 ) ) ;
#301 = ORIENTED_EDGE ( 'NONE', *, *, #121, .T. ) ;
#302 = PLANE ( 'NONE',  #192 ) ;
#303 = VECTOR ( 'NONE', #92, 1000.000000000000000 ) ;
#304 = APPLICATION_CONTEXT ( 'automotive_design' ) ;
#305 = VECTOR ( 'NONE', #7, 1000.000000000000000 ) ;
#306 = PRODUCT_CONTEXT ( 'NONE', #304, 'mechanical' ) ;
#307 = ORIENTED_EDGE ( 'NONE', *, *, #299, .T. ) ;
#308 = STYLED_ITEM ( 'NONE', ( #30 ), #95 ) ;
#309 = EDGE_CURVE ( 'NONE', #141, #237, #144, .T. ) ;
#310 = VECTOR ( 'NONE', #69, 1000.000000000000000 ) ;
#311 = SURFACE_STYLE_FILL_AREA ( #243 ) ;
#312 = ORIENTED_EDGE ( 'NONE', *, *, #106, .T. ) ;
#313 = CARTESIAN_POINT ( 'NONE',  ( -44.99999999999997868, 0.000000000000000000, 45.00000000000001421 ) ) ;
#314 = DIRECTION ( 'NONE',  ( -0.000000000000000000, -1.000000000000000000, -0.000000000000000000 ) ) ;
#315 = FACE_OUTER_BOUND ( 'NONE', #165, .T. ) ;
#316 = FILL_AREA_STYLE ('',( #145 ) ) ;
#317 = DIRECTION ( 'NONE',  ( 1.734723475976807094E-16, -0.000000000000000000, 1.000000000000000000 ) ) ;
#318 = CARTESIAN_POINT ( 'NONE',  ( 45.00000000000001421, 0.000000000000000000, 45.00000000000000000 ) ) ;
#319 = AXIS2_PLACEMENT_3D ( 'NONE', #221, #66, #117 ) ;
#320 = ORIENTED_EDGE ( 'NONE', *, *, #299, .F. ) ;
#321 = LINE ( 'NONE', #132, #305 ) ;
#322 = ORIENTED_EDGE ( 'NONE', *, *, #309, .T. ) ;
#323 = ORIENTED_EDGE ( 'NONE', *, *, #294, .T. ) ;
#324 = EDGE_CURVE ( 'NONE', #233, #204, #169, .T. ) ;
#325 =( GEOMETRIC_REPRESENTATION_CONTEXT ( 3 ) GLOBAL_UNCERTAINTY_ASSIGNED_CONTEXT ( ( #133 ) ) GLOBAL_UNIT_ASSIGNED_CONTEXT ( ( #127, #270, #183 ) ) REPRESENTATION_CONTEXT ( 'NONE', 'WORKASPACE' ) );
#326 = LINE ( 'NONE', #32, #176 ) ;
#327 = PRESENTATION_LAYER_ASSIGNMENT (  '', '', ( #308 ) ) ;
#328 = DIRECTION ( 'NONE',  ( 0.000000000000000000, -0.000000000000000000, -1.000000000000000000 ) ) ;
#329 = CARTESIAN_POINT ( 'NONE',  ( 45.00000000000001421, 0.000000000000000000, 45.00000000000000000 ) ) ;
#330 = VERTEX_POINT ( 'NONE', #154 ) ;
#331 =( GEOMETRIC_REPRESENTATION_CONTEXT ( 3 ) GLOBAL_UNCERTAINTY_ASSIGNED_CONTEXT ( ( #260 ) ) GLOBAL_UNIT_ASSIGNED_CONTEXT ( ( #156, #5, #188 ) ) REPRESENTATION_CONTEXT ( 'NONE', 'WORKASPACE' ) );
#332 = VECTOR ( 'NONE', #57, 1000.000000000000000 ) ;
#333 = SHAPE_DEFINITION_REPRESENTATION ( #275, #95 ) ;
#334 = EDGE_LOOP ( 'NONE', ( #9, #83, #73, #99 ) ) ;
#335 = EDGE_LOOP ( 'NONE', ( #322, #96, #229, #307 ) ) ;
#336 = DIRECTION ( 'NONE',  ( 0.000000000000000000, -1.000000000000000000, 0.000000000000000000 ) ) ;
#337 = DIRECTION ( 'NONE',  ( 0.000000000000000000, -0.000000000000000000, -1.000000000000000000 ) ) ;
#338 = PLANE ( 'NONE',  #295 ) ;
#339 = SURFACE_SIDE_STYLE ('',( #61 ) ) ;
#340 = ORIENTED_EDGE ( 'NONE', *, *, #249, .F. ) ;
#341 = CARTESIAN_POINT ( 'NONE',  ( 0.000000000000000000, 0.000000000000000000, 0.000000000000000000 ) ) ;
#342 = VECTOR ( 'NONE', #116, 1000.000000000000000 ) ;
#343 = MECHANICAL_DESIGN_GEOMETRIC_PRESENTATION_REPRESENTATION (  '', ( #308 ), #10 ) ;
#344 = VECTOR ( 'NONE', #314, 1000.000000000000000 ) ;
ENDSEC;
END-ISO-10303-21;
